Yazdır
Seslendiren: Cem Karaca
Cem Karaca
Gönderen:

Resimdeki Gözyaşları (Tab)

E||---8-----7-8-7-8-7-8------------|
B||----------------------10--------|

E--8-7-8-7-8-7-8--8b---------||
B----------------------------||


Am                      )
Birgün belki hayattan   )
                 Dm     )
Geçmisteki günlerden    )
                 B      )
Bir teselli ararsin     )a
                 E      )
Bak o zaman resmime     )
                Am      )
Gör akan o yaslari      )

E--8---7------------7--8--|
B--------10-----10--------|

E--10---8-10---10--8--7--|
B------------------------|

E--8---7----------7--8--|
B--------10---10--------|

E--10---8-10------------|
B-----------------------|

Am
Benden sana son kalan   heyyy ya
                   Dm
Bir küçük resim simdi
               B
Cevap veremez ama
                 E
Aglar yalnizligina

Dm        Am
Ve iste arta kalan
E               Am A7
Bir avuç anı simdi
Dm               Am
Koyup da bir başına
E                Am
Birakip gittin beni

E|-----------------------------|
B|--12--12--12------12--10--9--|


E--------12---11-12-11-12---------|
B--10-----------------------12-13-|

E---------------------|
B--10-----------------|

Dm         Am
Sen yalniz değilsin
E               Am   A7
Biliyorum neredesin
Dm     Am
Bu üzerdi beni
  E                 Am
Yaşasaydin ve görseydin

Trompet solo
E------------------------------|-----------|
B-------13--12--13--12--13-12--|-----------|
G-------------------------------|--14-------|

E-------------------------------|-----------|
B-------13--12--13--12--13-14---|--15-------|
G-------------------------------|-----------|

E-------------------------------|-----------|
B-------15--13--15--13--15-13---|--12-------|
G-------------------------------|-----------|

E-------------------------------|----------||
B-------12--12---l--12--13-15---|--15b-----||
G-------------------------------|----------||

Am
Birgün belki hayattan
                 Dm
Geçmisteki günlerden
                B
Bir teselli ararsin
                 E
Bak o zaman resmime
              Am
Gör akan o yaslari
            Dm
Lay lay lay lay la lay
          Am
Lay la la lay la lay
Şarkının doğruluğunu nasıl değerlendiriyorsunuz?
43%
Daha önce 2 değerlendirme yapılmış


Bu sayfayı ziyaret edenler bu sayfalara da uğradı :