Yazdır
Seslendiren: Demir Demirkan
Demir Demirkan
Gönderen:

Nafile İntro Solo (Tab)

E||----------------------------------------|
B||----------------------------------------|
G||----------------------------------------|
D||------2-4-4s-5s-4-2---------------------|
A||----2---------------2h-3-5-3------------|
E||--0--------------------------2h-3-5-3-2-|


-----------------------------------|
----------------------------2-3----|
------------------------2-4--------|
------2-4-4S-5s-4-2-4-5------------|
----2------------------------------|
--0--------------------------------|


----------------------------------------|
----------------------------------------|
----------------------------------------|
------2-4-4S-5s-4-2---------------------|
----2---------------2H-3-5-3------------|
--0--------------------------2H-3-5-3-2-|


-----------------------------------|
-----------------------------------|
-----------------------------------|
------2-4-4S-5s-4-2----------------|
----2---------------2-3-5-3-2------|
--0---------------------------0----|

Şarkının doğruluğunu nasıl değerlendiriyorsunuz?
93%
Daha önce 2 değerlendirme yapılmış


Bu sayfayı ziyaret edenler bu sayfalara da uğradı :