Yazdır
Seslendiren: Feridun Düzağaç
Feridun Düzağaç
Gönderen:

Fd Benkısaca Fd (Tab)

E||----------------------|-----------------------|
B||----------------------|-----------------------|
G||-------------------8--|--10---8--10----8--10--|
D||-------10----11-------|-----------------------|
A||----------------------|-----------------------|
E||----------------------|-----------------------|

---------------------------|---------------------|
---------------------------|--8------8--------8--|
-8--10----8--10--8---------|-----10-------10-----|
--------------------11--10-|---------------------|
---------------------------|---------------------|
---------------------------|---------------------|

---------------------------|------------------8--|
------------------------8--|--9-----------11-----|
-----------------8--10-----|---------------------|
---------10--11------------|---------------------|
---------------------------|---------------------|
---------------------------|---------------------|

-------------------------|-----------------------|
--11-------11--9--8------|--8--------8--------8--|
---------------------10--|-------10-------10-----|
-------------------------|-----------------------|
-------------------------|-----------------------|
-------------------------|-----------------------|

------------------------|------------------------|
------------------------|------------------------|
-------------------8----|--10----8--10----8--10--|
-------10----11---------|------------------------|
------------------------|------------------------|
------------------------|------------------------|

---------------------------|---------------------|
---------------------------|--8-------8--------8-|
-8--10----8--10--8---------|------10-------10----|
--------------------11--10-|---------------------|
---------------------------|---------------------|
---------------------------|---------------------|

---------------------------|---------------------|
------------------------8--|--9------------9--8--|
-----------------8--10-----|---------------------|
---------10--11------------|---------------------|
---------------------------|---------------------|
---------------------------|---------------------|

-------------------------|-----------------------||
-------------------------|-----------------------||
--10----8--10--8------8--|-----------------------||
------------------11-----|--10---8--10----8--10--||
-------------------------|-----------------------||
-------------------------|-----------------------||

Cm                           Db
Onuncu ayın onuncu günü saat onbuçukta yanmış mumum
 Cm                           Db       Bbm         Cm
Otuzbes yıl olmus ihtiyar bir çocuktur     güzel ruhum

Cm                         Db
Okul asip oyuna kaçar biraksam hala

           Cm                      Db      Bbm         Cm
Ama çok düstü, incindi, yoruldu dinlenmeli kalbim dogrusu

Bbm  Eb                   Cm      Db
Sen  dogum günü hediyem misin diyelim ki hoşgeldin

     Eb                 Cm
Peki beni çok sevecek misin

      Fm               Eb
Yoksa sen de her düş gibi çabucak

 Db            Bbm           Cm
Kırılıp dökülür müsün  gözlerimden



Cm            Fm              Cm                  ı
Gel tanisalim önce ben kısaca F.d.                ıx2
                                                  I
          Db         Bbm               Cm  (db Eb)ı
Ama sen bana uzun uzun   seni seviyorum de        ı

            Fm               Cm
Ah ne az duydum, ne kadar az söyledim
               Db          Bbm              Cm
İste bu yüzden   hiç durmadan seni seviyorum de

Cm  Fm  Cm  Db Bbm  Cm x2

 Cm                          Db
Sair çok iyimsermis yolun yarisina mi geldik

   
Şarkının doğruluğunu nasıl değerlendiriyorsunuz?
85%
Daha önce 5 değerlendirme yapılmış


Bu sayfayı ziyaret edenler bu sayfalara da uğradı :