Yazdır
Seslendiren: Grup Yorum
Grup Yorum
Gönderen:

Ugurlama (Tab)

           Gm                   Cm
E||--------------------------|----------------|
B||--------3--1--3--1--------|--1-------------|
G||*-------------------3--2--|----------------|
D||*-------------------------|----------------|
A||--------------------------|----------------|
E||--------------------------|----------------|

                              Bb
---------------------------|-------------------|
--1--1-3-1-----1-----------|-------------------|
------------3-----3--2--0--|--3----------------|
---------------------------|-------------------|
---------------------------|-------------------|
---------------------------|-------------------|

                            Gm
-------------------------|---------------------|
-------------------------|---------------------|
--L----3--2--3--2--0-----|--0------------------|
----------------------3--|---------3--1--0--1--|
-------------------------|---------------------|
-------------------------|---------------------|

       D7                   Gm
-------------------------|--------------------||
-------------------------|--------------------||
----------------0--2--3--|--0----------------*||
--L----0--1--4-----------|-------------------*||
-------------------------|--------------------||
-------------------------|--------------------||
Bağlama
        Gm                   F
--------6--5--6--5--------|--------------------|
--------------------8--6--|--6S--10------------|
*-------------------------|--------------------|
*-------------------------|--------------------|
--------------------------|--------------------|
--------------------------|--------------------|

                             Gm
--------5--3--5--3--------|--------------------|
--------------------6--4--|--4S--8-------------|
--------------------------|--------------------|
--------------------------|--------------------|
--------------------------|--------------------|
--------------------------|--------------------|

                         Cm      D7
----3--1--3--1------|-----|--2---3---5---6--5--|
---------------4--3-|--4--|--------------------|
--------------------|-----|--------------------|
--------------------|-----|--------------------|
--------------------|-----|--------------------|
--------------------|-----|--------------------|

  Gm
--3-----------------||
--------------------||
-------------------*||
-------------------*||
--------------------||
--------------------||

Gm                 F
 Bu kente yalnızlık çöktüğü zaman

                  Gm
 Uykusunda bir kuş ölür ecelsiz
               Eb
 Alıpta başını gitmek istersin
 D7                  Gm
 Karanlık sokaklar kör sağır dilsiz

 Gm               Cm
 Ey sevda kuşanıp yollara düşen
                  Gm
 Bilesin bu sevda dağlar dolanır
                 Eb
 Yare ulaşmadan düşersen eğer
 D7                     Gm
 Yarına sesinin yankısı kalır

Gm                 F
 Gecenin ucunda gün aralanır
                 Gm
 Yar sevdası ile bilek bilenir
                  Eb
 Sızılı bir ırmak uğurlar seni
 D7                    Gm
 Su olup akarsın kır çiçeklenir
Şarkının doğruluğunu nasıl değerlendiriyorsunuz?
69%
Daha önce 13 değerlendirme yapılmış


Bu sayfayı ziyaret edenler bu sayfalara da uğradı :