Yazdır
Seslendiren: Haramiler
Haramiler
Gönderen:

Mavi Duvar (Tab)

     Am                F
E||------------------|------------------|
B||--5---------------|--6-------8-6-5-6-|
G||----------4-5--7--|------------------|
D||--------7---------|------------------|
A||------------------|------------------|
E||------------------|------------------|

  G        F    G       Am
---------------------|--5----------------|
--8--------6----8----|-------------------|
---------------------|-------------------|
---------------------|-------------------|
---------------------|-------------------|
---------------------|-------------------|

Video sitemizden kaldırılmıştır.
Şarkının doğruluğunu nasıl değerlendiriyorsunuz?
32%
Daha önce 14 değerlendirme yapılmış


Bu sayfayı ziyaret edenler bu sayfalara da uğradı :