Yazdır
Seslendiren: Kerim Tekin
Kerim Tekin
Gönderen:

Haykırsam Dünyaya Piyano Solo (Tab)

E||-----------------3----|--3---------------3--|
B||-------4----6---------|---------------6-----|
G||----------------------|---------------------|
D||----------------------|---------------------|
A||----------------------|---------------------|
E||----------------------|---------------------|

--4----3--3-------|---------|----------------3--|
---------------6--|--6------|------4----6-------|
------------------|---------|-------------------|
------------------|---------|-------------------|
------------------|---------|-------------------|
------------------|---------|-------------------|

--3----------8--6--|--4------3--3----3-4-|------|
-------------------|---------------------|--6---|
-------------------|---------------------|------|
-------------------|---------------------|------|
-------------------|---------------------|------|
-------------------|---------------------|------|

--------------3--|--4----------|-------------3--|
----4----6-------|------6--6---|-----4---6------|
-----------------|-------------|----------------|
-----------------|-------------|----------------|
-----------------|-------------|----------------|
-----------------|-------------|----------------|

--6--4--4--3--3-----------|-----------------3---|
-----------------6--6--5--|-------4----6--------|
--------------------------|---------------------|
--------------------------|---------------------|
--------------------------|---------------------|
--------------------------|---------------------|

--4------------------|-----6--6--4--4--3--3-----|
---------6--6--------|-----------------------6--|
---------------------|--------------------------|
---------------------|--------------------------|
---------------------|--------------------------|
---------------------|--------------------------|


--6--4--4----------------||
-----------6--6--5-------||
-------------------------||
-------------------------||
-------------------------||
Şarkının doğruluğunu nasıl değerlendiriyorsunuz?
37%
Daha önce 3 değerlendirme yapılmış


Bu sayfayı ziyaret edenler bu sayfalara da uğradı :