Yazdır
Seslendiren: İntizar
İntizar
Gönderen:

Ihlamurlar Altında Soundtrax (Tab)

E-----------------------------------------------------------------------------
H----8-9-11-11\13-11-9-11-9-8-9-8---------------------------------------2kere
G-----------------------------------------------------------------------------
D-----------------------------------------------------------------------------
A-----------------------------------------------------------------------------
E-----------------------------------------------------------------------------

E-----------------------------------------------------------------------------
H---11-13-15-16-15-13-15-13-11-13-11------9-8----8-9-11-11\13-11-9-11-9-8-9-8
G-----------------------------------------------------------------------------
D-----------------------------------------------------------------------------
A-----------------------------------------------------------------------------
E-----------------------------------------------------------------------------

E-----------------------------------------------------------------------------
H---11-13-15-16-15-13-11-9-11-9-8-9-8-6-----6-8-9-9\15-13-11----8-9-8-6-8-----
G-----------------------------------------------------------------------------
D-----------------------------------------------------------------------------
A-----------------------------------------------------------------------------
E-----------------------------------------------------------------------------

E-----------------------------------------------------------------------------
H---8-9-11-11\13-11-9-11-9-8-9-8---------------------------------bastan
Bi daha
G------------------------------------------------------------------------------
D------------------------------------------------------------------------------
A------------------------------------------------------------------------------
E------------------------------------------------------------------------------
Şarkının doğruluğunu nasıl değerlendiriyorsunuz?
8%
Daha önce 1 değerlendirme yapılmış


Bu sayfayı ziyaret edenler bu sayfalara da uğradı :