Yazdır
Seslendiren: Hasan Cihat Örter
Hasan Cihat Örter
Gönderen:

Rast Üç (Tab)

--------------------------------------------------|----0-2-3-2-0-----------0------|
------------5--------------------------3-1-0------|--3-----------3-1-0-1-3---3----|
--4-5-4-5-7---7-5---4---4-5-7-5-4-0----------2-0--|-------------------------------|
------------------7---7---------------------------|-------------------------------|
--------------------------------------------------|-------------------------------|
--------------------------------------------------|-------------------------------|

----3---3-------------------|----0-2-3-2-0-----------0------|
--3---3---3----3-1-0-1-3----|--3-----------3-1-0-1-3---3----|
----------------------------|-------------------------------|
----------------------------|-------------------------------|
----------------------------|-------------------------------|
----------------------------|-------------------------------|

----3---3-------------------|----0-2-3-2-0---------0-2-0-------|
--3---3---3----3-1-0-1-3----|--3-----------3-1-1-3-------3-1-0-|
----------------------------|----------------------------------|
----------------------------|----------------------------------|
----------------------------|----------------------------------|
----------------------------|----------------------------------|

--------0-----------------0----|----------------------------|
--0-1-3---3-1-0-----0-1-3------|--3-0-3-0-3----3-1-0--------|
----------------2-0------------|---------------------2-0----|
-------------------------------|----------------------------|
-------------------------------|----------------------------|
-------------------------------|----------------------------|

------------2-5-2-3-----3----|----3---3-------------------|
----0-3-0-3----------3-------|--3---3---3----3-1-0-1-3----|
--0--------------------------|----------------------------|
-----------------------------|----------------------------|
-----------------------------|----------------------------|
-----------------------------|----------------------------|


----0-2-3-2-0---------0-2-0-------|--------0-----------------0----|
--3-----------3-1-1-3-------3-1-0-|--0-1-3---3-1-0-----0-1-3------|
----------------------------------|----------------2-0------------|
----------------------------------|-------------------------------|
----------------------------------|-------------------------------|
----------------------------------|-------------------------------|

----------------------------|------------2-5-2-3-----3----|
--3-0-3-0-3----3-1-0--------|----0-3-0-3----------3-------|
---------------------2-0----|--0--------------------------|
----------------------------|-----------------------------|
----------------------------|-----------------------------|
----------------------------|-----------------------------|

---------------------------------------------------|
---------------------------------------------------|
------------------------4-5-4-5-7-5-4---------5-7--|
-------------5-7-5-7-9----------------7-5-7-9------|
--5-7-5-7-9----------------------------------------|
---------------------------------------------------|

-------------------------------------------------------|
-------------------------------------------------------|
--------------------------5-7-5-7-9-7-------------7-9--|
--------------7-9-7-9-10--------------10-9-7-9-10------|
--7-9-7-9-10-------------------------------------------|
-------------------------------------------------------|

---------------------------------------------------------------|
---------------------------------------------------------------|
------------------------------7-9-7-9-11-9---------------9-11--|
----------------9-10-9-10-12---------------12-10-9-1
Şarkının doğruluğunu nasıl değerlendiriyorsunuz?
0%
Daha önce 0 değerlendirme yapılmış


Bu sayfayı ziyaret edenler bu sayfalara da uğradı :