Yazdır
Seslendiren: Pentagram
Pentagram
Gönderen:

Sonsuzluk (İntro) (Tab)

solo(a)
B----------------------------------------------------------
G---9-----7-------------7-----7----------------------------
D-9--9/-7--7/--4-5-7--7--7--4--4---5p4---------------------
A---------------------------------7---7-5-5h7--4h5-7-4h5-7-
E----------------------------------------------------------
solo(b)
B-------------------------------------------
G-------------------------------------------
D-----------5-5----------------7-7----------
A---7-7---------5-4h5---7-7-5------7-5-5h7--
E------8~~----------------------------------
solo(a) ve solo(b) 2 şer kez.


Şarkının doğruluğunu nasıl değerlendiriyorsunuz?
26%
Daha önce 18 değerlendirme yapılmış


Bu sayfayı ziyaret edenler bu sayfalara da uğradı :