Yazdır
Seslendiren: Haluk Levent
Haluk Levent
Gönderen:

Dağlar (İntro) (Tab)

e-----------------------------------
B----------8~~----------------------
G----7--------10~~--8-7--7~~-7------ x4
D--8---8----------------------10-8~-  
A-----------------------------------

...ihanetine yandım
e--10-9-7---9-7-----7------------
B--------------10-----10-8-7-----
G-------------------------------- x2
D--------------------------------
A--------------------------------

2:09
e-----------------------------------
B----------8~~----------------------
G----7--------10~~--8-7--7~~-7------ x2
D--8---8----------------------10-8~-  
A-----------------------------------

e-----------6~~-----8-6----6--------
B--------------9~~-------9-----8~~--
G----7------------------------------ x2
D--8---8----------------------------
A-----------------------------------

e-----------------------------------
B----------8~~----------------------
G----7--------10~~--8-7--7~~-7------ x2
D--8---8----------------------10-8~-  
A-----------------------------------

Şarkının doğruluğunu nasıl değerlendiriyorsunuz?
41%
Daha önce 12 değerlendirme yapılmış


Bu sayfayı ziyaret edenler bu sayfalara da uğradı :