Yazdır
Seslendiren: Barış Manço
Barış Manço
Gönderen:

Can Bedende Çıkmayınca (Tab)

E||--------------------------|-----------------------|
B||-----0----0--0-1-0-----0--|-----0----0-------0----|
G||--------------------2-----|-------------2---------|
D||--2-----------------------|--2--------------------|
A||--------------------------|-----------------------|
E||--------------------------|-----------------------|



--------------------------|-----------------------|------------------------|
-----0----0--0-1-0-----0--|-----0----0-------0----|-------0----------0-----|
--------------------2-----|-------------2---------|--2-------0--2-------0--|
--2-----------------------|--2--------------------|------------------------|
--------------------------|-----------------------|------------------------|
--------------------------|-----------------------|------------------------|



-------------------------|------------------------|-------------------------|
-----1----0--0-----------|------------------------|-----0-------------------|
--2-------------2--2--0--|--0----2-----0----2-----|--0-------2--2--0--0-----|
-------------------------|----------4----------4--|----------------------3--|
-------------------------|------------------------|-------------------------|
-------------------------|------------------------|-------------------------|



------------------------|-------------------------|------------------------|
------------------------|-------------------------|------------------------|
-------0----------0-----|-----2----0--0-----------|------0--2--2--0--------|
--3-------2--3-------2--|--3-------------3--3--2--|------------------3--2--|
------------------------|-------------------------|------------------------|
------------------------|-------------------------|------------------------|



-------------------------|--------------------------|-----------------------|
-------------------------|-----0----0--0-1-0-----0--|-----0----0-------0----|
--0--2----2--2--0--------|--------------------2-----|-------------2---------|
-------------------3--2--|--2-----------------------|--2--------------------|
-------------------------|--------------------------|-----------------------|
-------------------------|--------------------------|-----------------------|


--------------------------|-----------------------||
-----0----0--0-1-0-----0--|-----0----0-------0----||
--------------------2-----|-------------2---------||
--2-----------------------|--2--------------------||
--------------------------|-----------------------||
--------------------------|-----------------------||

Şarkının doğruluğunu nasıl değerlendiriyorsunuz?
17%
Daha önce 9 değerlendirme yapılmış


Bu sayfayı ziyaret edenler bu sayfalara da uğradı :