Yazdır
Seslendiren: Barış Manço
Barış Manço
Gönderen:

Hal Hal (Tab)

E||--------------------------|--------------------------|
B||------------0-------------|------------------------0-|
G||--------------2--0----0-2-|--------------------0-2---|
D||--2--2--------------4-----|--2--2------0-2--4--------|
A||--------------------------|--------------------------|
E||--------------------------|--------------------------|


--------------------------|---------------------------|
------------0-------------|---------------------0-1-3-|
--2--2--------2--0----0-2-|-----------------0-2-------|
--------------------4-----|--2--2-------2-3-----------|
--------------------------|---------------------------|
--------------------------|---------------------------|



--------------------------------|--------------------------------|
----0-1-1-3-1-0-0-1-0-----0-----|------0-0-1-0-----0-------------|
----------------------2-2---2-0-|----2---------2-2---2-0-0-2-0---|
--------------------------------|------------------------------4-|
--------------------------------|--------------------------------|
--------------------------------|--------------------------------|



--------------------------------|--------------------|----------||
----------0---------------------|--------------------|----------||
----0-2-2---2-0-0-2-0-----0-----|--------------------|----------||
----------------------4-4---4-0-|--2--2--------------|----------||
--------------------------------|--------------------|----------||
--------------------------------|--------------------|----------||

Şarkının doğruluğunu nasıl değerlendiriyorsunuz?
3%
Daha önce 3 değerlendirme yapılmış


Bu sayfayı ziyaret edenler bu sayfalara da uğradı :