Yazdır
Seslendiren: Barış Manço
Barış Manço
Gönderen:

Halil İbrahim Sofrası (Tab)

   Gm             F             D#           Cm
E||----5-6-6--6-5-3-5---5--3-1-|----3--3--1--3-1----------|
B||----------------------------|-----------------4-3-4----|
G||----------------------------|--------------------------|
D||----------------------------|--------------------------|
A||----------------------------|--------------------------|
E||----------------------------|--------------------------|

  F            Cm            D#           Dm
----3-5-5--5-3-1-3---3--1---|-------------1------------|
--------------------------4-|----4--4--3----4-3-4-3----| X 2
----------------------------|--------------------------|
----------------------------|--------------------------|
----------------------------|--------------------------|
----------------------------|--------------------------|


 Dm
----------------------------|--------------------------|
--0-1-3--3--1--0-1-3----0-1-|--0-1-3--3--1--0-1-3------| X 2
----------------------------|--------------------------|
----------------------------|--------------------------|
----------------------------|--------------------------|
----------------------------|--------------------------|

Klibi izlemek için tıklayın

Şarkının doğruluğunu nasıl değerlendiriyorsunuz?
99%
Daha önce 1 değerlendirme yapılmış


Bu sayfayı ziyaret edenler bu sayfalara da uğradı :