Yazdır
Seslendiren: Barış Manço
Barış Manço
Gönderen:

Hayır (Tab)

1----------------/----------------------
2----------------/----------------------
3----0-2-2-0-2---/--3-2-0-3-2-0---------
4--3-----------3-/--------------3-1-0---
5----------------/----------------------
6----------------/----------------------

1-------------------/--------------------
2-------------------/--------------------
3-------0-2-2-0-2---/-3-2-0-3-2-0--------
4--1-3------------3-/-------------3-1-0--
5-------------------/--------------------
6-------------------/--------------------
Klibi izlemek için tıklayın

Şarkının doğruluğunu nasıl değerlendiriyorsunuz?
0%
Daha önce 0 değerlendirme yapılmış


Bu sayfayı ziyaret edenler bu sayfalara da uğradı :