Yazdır
Seslendiren: Barış Manço
Barış Manço
Gönderen:

Kayaların Oğlu (Tab)

E:-------------------------------------------------|
B:-------------------------------------------------|
G:------------------------------------------------|
D:------------------------------------------------|
A:--3-----2----0--------0----2----0----------|
E:--------------------3--------------------3----|

E:--------------------------------------------------|
B:-------------------------------------------------|
G:-------------------------------------------------|
D:-------------------------------------------------|
A:------------------------0-----------------------|
E:--1---0---1---3------------3---1---0--------|

E:------------------------------------------------|
B:-----------------------------------------------|
G:-----------------------------------------------|
D:-----------------------------------------------|
A:----------------3---2------------------------|
E:--0---1---3---------------------------------|

Şarkının doğruluğunu nasıl değerlendiriyorsunuz?
72%
Daha önce 2 değerlendirme yapılmış


Bu sayfayı ziyaret edenler bu sayfalara da uğradı :