Yazdır
Seslendiren: Barış Manço
Barış Manço
Gönderen:

Rüya (Tab)

E:---------bu kısım  iki kez
Çalınacak----------------------------------------------|
B:-----------------------------------------------------------------------------------|

G:-----------------------------------------------------------------------------------|

D:-------------------------------------2--0------------------------------------------|

A:--2-------------2----------2--2-------------3--2--2----0-0-----0--2-3-2-2--------|

E:-----0--2--3-------0--2--3--------------------------------------------------------|


E:-----------------------------------------------------------------------------------|
B:-----------------------------------------------------------------------------------|
G:---------------------------------------0---------------0---------------------------|
D:--2-3-2----0-0----2-3-2----0-0---2--3--------3--2-------3--2--0--2--0--0--2--3--|
A:-----------------------------------------------------------------------------------|
E:-----------------------------------------------------------------------------------|

E:-----------------------------------------------------------------------------------|
B:-----------------------------------------------------------------------------------|
G:---------------------------------------0---------------0---------------------------|
D:--2-3-2----0-0----2-3-2----0-0---2--3--------3--2-------3--2--0--2*-----0--0----|
A:-----------------------------------------------------------------------------------|
E:-----------------------------------------------------------------------------------|
* Biraz beklenecek (1-2 sn kadar)

E:---------bu kısım  iki kez
Çalınacak---------------------------------------------|
B:----------------------------------------------------------------------------------|
G:-------------------------------------2--0-----------------------------------------|

D:--2-------------2----------2--2-------------3--2--2----0-0-----0--2--3--2--2----|

A:-----0--2--3-------0--2--3-------------------------------------------------------|

E:----------------------------------------------------------------------------------|

E:----------------------------------------------------------------------------------|
B:---------------------------------------0---------------0--------------------------|
G:--2-3-2----0-0----2-3-2----0-0---2--3--------3--2-------3--2--0--2--0--0--2--3-|
D:----------------------------------------------------------------------------------|
A:----------------------------------------------------------------------------------|
E:----------------------------------------------------------------------------------|

E:----------------------------------------------------------------------------------|
B:---------------------------------------0---------------0--------------------------|
G:--2-3-2----0-0----2-3-2----0-0---2--3--------3--2-------3--2--0--2*-------0--0-|
D:----------------------------------------------------------------------------------|
A:----------------------------------------------------------------------------------|
E:----------------------------------------------------------------------------------|

* Biraz beklenecek (1-2 sn kadar)

E:--2---------------2---------------2--2---7--5--3--1----1--0-0---0--2--3--2--2---|
B:------0--2--3-------0--2--3------------------------------------------------------|
G:----------------------------------------------------------------------------------|
D:----------------------------------------------------------------------------------|
A:----------------------------------------------------------------------------------|
E:--------------bu kısım iki kez
Çalınacak----------------------------------------|
Klibi izlemek için tıklayın

Şarkının doğruluğunu nasıl değerlendiriyorsunuz?
0%
Daha önce 0 değerlendirme yapılmış


Bu sayfayı ziyaret edenler bu sayfalara da uğradı :