Yazdır
Seslendiren: Cem Karaca
Cem Karaca
Gönderen:

Çok Yorgunum (Tab)

E------7---------7---------7---------7---------    )
B--------8---------8---------8---------8-------    )
G----9--------9---------9---------9------------    ) x 2
D--9--------------------------------------------   )
A-----------------------------------------------   )
E-----------------------------------------------   )

    Çooook
Yorgunum
E------7---------7---------7---------7-----------7--------7--------7---------7---
)
B--------8---------8---------8---------8-----------8--------8--------8---------8-
)
G----9--------9---------9---------9-----------9--------9--------9---------9-----
 )
D--9-----------------------------------------------------------------------------
)
A-------------------------------------------------------------------------------
 )
E--------------------------------------------------------------------------------
)

                      )
    Beni                                      bekleme
Kaptan                  )x2
E-----------5--------5--------5-------5---------7---------7--------7---------7---
)
B--------7--------7--------7--------7-------------8---------8--------8---------8-
)
G-----7--------7--------7--------7-----------9---------9--------9---------9------
)
D--7-----------------------------------------------------------------------------
)
A--------------------------------------------------------------------------------
)
E--------------------------------------------------------------------------------
)

 Am            C            B    )
 Seyir defterini başkası yazsın  ) x 2

 Em--------------------------------------
              )

              )
 Am     B        C
              )
 Çınarlı kubbeli mavi bir liman
                     )
 D                 C
                  )
 Beni o limana çıkaramazsın
                 )

              )

              )
E------7---------7---------7---------7---------   )
              )
B--------8---------8---------8---------8-------   )
                  )   X 2
G----9--------9---------9---------9------------   ) geçiş
               )
D--9--------------------------------------------  )
                )
A-----------------------------------------------  )
              )
E-----------------------------------------------  )
                         )

                  )
Beni o limana çıkaramazsın
                )
E-----------5--------5--------5-------5---
                )
B--------7--------7--------7--------7------
                        )
G-----7--------7--------7--------7--------
                )
D--7--------------------------------------
Şarkının doğruluğunu nasıl değerlendiriyorsunuz?
2%
Daha önce 1 değerlendirme yapılmış


Bu sayfayı ziyaret edenler bu sayfalara da uğradı :