Yazdır
Seslendiren: Cem Karaca
Cem Karaca
Gönderen:

Edalı Gelin (Tab)

   Bolum 1
G|------------------------------------|
D|-------11---11-8----11-10-----------|
A|---9-9----9------11-----------------|
E|--------------------------6---4---6-|

   Bolum 2
G|--------------------------------------------------------|
D|-----------------------------11---11-8----11-10---------|
A|-------8-----8--------3---9-9----9------11--------------|
E|--6-6----6-6---3--3-3---6-----------------------6---4--6|

   Bolum 3
G|--------------------------------|-----------|---------|
D|----------------------6-5-6-5-3-|---------6-|-------8-|
A|------8-----8-----3-------------|-4--4-4----|6--6-6---|
E|--6-6---6-6---3-3---6-----------|-----------|---------|
                                  \__3 Defa__/ \_2defa_/

G|-----------|--------------------------|
D|--------11-|--------10----------------|
A|-9--9-9----|-8--8-8----6---6-6-6-6-4-6|
E|-----------|--------------------------|
 \__2 Defa__/

Şarkının doğruluğunu nasıl değerlendiriyorsunuz?
0%
Daha önce 0 değerlendirme yapılmış


Bu sayfayı ziyaret edenler bu sayfalara da uğradı :