Yazdır
Seslendiren: Cem Karaca
Cem Karaca
Gönderen:

Islak Islak (Tab)

Lead gitar
E||------|------|------|------|
B||------|------|------|------|
G||------|------|------|------|
D||------|------|------|------|
A||------|------|------|------|
E||------|------|------|------|


-----------------------|
-----------------------|
-----------------------|
------5--0--3--4--5----|
-----------------------|
-----------------------|


------------------------|
------------------------|
-------------5--0--3----|
--5--0--3---------------|
------------------------|
------------------------|


-----------------------|
-----------------------|
-----------------------|
------5--0--3--4--5----|
-----------------------|
-----------------------|


----------------------|
----------------------|
--3-------------------|
-----0--5----5--------|
----------------------|
----------------------|

Devam ederken solo giriyo

Distortion solo gitar
E||--------------------|
B||--6/-8--------------|
G||--------------------|
D||--------------------|
A||--------------------|
E||--------------------|



------8--10------8------|--10----------------|------------------|--11------11------11----|
------------------------|--------------------|------------------|------------------------|
------------------------|--------------------|------------------|------------------------|
------------------------|--------------------|------------------|------------------------|
------------------------|--------------------|------------------|------------------------|
------------------------|--------------------|------------------|------------------------|



------------------|--------10----------|------------------|--10~-----8----------|
------------------|--------------------|------------------|---------------------|
------------------|--------------------|------------------|---------------------|
------------------|--------------------|------------------|---------------------|
------------------|--------------------|------------------|---------------------|
------------------|--------------------|------------------|---------------------|



--10~-----8----------|--10~-----8------6----|-------------6------|-------------------|
---------------------|----------------------|------8-------------|--9----------------|
---------------------|----------------------|--------------------|-------------------|
---------------------|----------------------|--------------------|-------------------|
---------------------|----------------------|--------------------|-------------------|
---------------------|----------------------|--------------------|-------------------|



------6-------------|---------------------|------|
-------------9------|--8--9--8------------|------|
--------------------|---------------------|------|
--------------------|---------------------|------|
--------------------|---------------------|------|
--------------------|---------------------|------|

Gecenin nemi mi düşmüş gözlerine
(Söz sonlarında çalınacak)
------|------------------------|-------------------|
------|------------------------|-------------------|
------|------------------3-----|-------------------|
------|------5--0--3--0-----0--|--5----------------|
------|------------------------|-------------------|
------|------------------------|-------------------|

Şarkının doğruluğunu nasıl değerlendiriyorsunuz?
46%
Daha önce 8 değerlendirme yapılmış


Bu sayfayı ziyaret edenler bu sayfalara da uğradı :