Yazdır
Seslendiren: Yalın
Yalın
Gönderen:

Zalim Giriş (Tab)

Bm          8kez***********
-----------------
-----5------5----
-------6---------
---6-----6-------
-4---------------
-----------------

A           4kez************
-----------------
-----4-----4-----
-------4---------
---4-----4-------
-2---------------
-----------------

G
-----------------
------5----5-----
--------6--------
---7------7------
-7---------------
-----------------

Em
-----------------
------2-----2----
--------2--------
---4------4------
-4---------------
-----------------
Şarkının doğruluğunu nasıl değerlendiriyorsunuz?
18%
Daha önce 7 değerlendirme yapılmış


Bu sayfayı ziyaret edenler bu sayfalara da uğradı :