Yazdır
Seslendiren: Mor ve Ötesi
Mor ve Ötesi
Gönderen:

Re İntro (Tab)

   D

----10-------12------14------9--10-9-10-----
-------10------10------10----10-10-1010-----
-11-------11-----11-------11----------------
-0------------------------------------------
--------------------------------------------
--------------------------------------------

 G                                    A          F#

----15------15------14---12----12-----9--9-10-12--6-6-7-|
------12------12----12------15----15--10----------7-----|
-12------12-----12--------------------9-----------6-----|
--------------------------------------------------------|
--------------------------------------------------------|
--------------------------------------------------------|
Şarkının doğruluğunu nasıl değerlendiriyorsunuz?
92%
Daha önce 1 değerlendirme yapılmış


Bu sayfayı ziyaret edenler bu sayfalara da uğradı :