Yazdır
Seslendiren: Murat Kekilli
Murat Kekilli
Gönderen:

Vakit Geldi İntro (Tab)

E-------------------------9---7----------7--------7----------------------------------
B---7----9---10----9--------------9---10----9-----------10---9--7--9--10---9------7--
G---------------------7------------------------7-------------------------------9-----
D------------------------------------------------------------------------------------

E-------------------------9---7----------7--------7----------------------------------
B---7----9---10----9--------------9---10----9-----------10---9--7--9--10---9------7--
G---------------------7------------------------7-------------------------------9-----
D------------------------------------------------------------------------------------

Şarkının doğruluğunu nasıl değerlendiriyorsunuz?
14%
Daha önce 2 değerlendirme yapılmış


Bu sayfayı ziyaret edenler bu sayfalara da uğradı :