Yazdır
Seslendiren: Pentagram
Pentagram
Gönderen:

Lions In A Cage (İntro) (Tab)

-|--------------------------|----------------------------|--
-|----8-7-8-10-7-8---7------|----8-7-8-10-11-10-8-7-8-7b-|--
-|-/7--------------8--78----|/7b-------------------------|--
-|-----------------------10-|----------------------------|--
-|--------------------------|----------------------------|--
-|--------------------------|----------------------------|--


-|---8------------------------------|-----------------------
-|-8---11-11-9----11-9--------------|-----10-8-8-7----------
-|-------------10------10-10-8-7-8b-|-8-7----------8-7-8----
-|----------------------------------|-------------------10b-
-|----------------------------------|-----------------------
-|----------------------------------|-----------------------
Şarkının doğruluğunu nasıl değerlendiriyorsunuz?
55%
Daha önce 23 değerlendirme yapılmış


Bu sayfayı ziyaret edenler bu sayfalara da uğradı :