Yazdır
Seslendiren: Barış Manço
Barış Manço
Gönderen:

Gülpembe (Tab)

Geçiş
00:21
     E-------------------14-----17------19---
     B------------15---10-----15-----17------
     G-----16---12---------------------------
     D--14-----------------------------------
     A---------------------------------------

00:25
  Em                        Am
E------------------------------------------------------
B-----12---12-13-12-10-12---10--10---10---10-12-12p10--
G--9--------------------------12------12---------------
D------------------------------------------------------
A------------------------------------------------------

  G
E------------------------------
B-----------------10-----------
G-12-11-12--11--12----12-11-12-
D------------------------------
A------------------------------

   D               G    F     Em      F       Em    F
Em
E-------------------------------------13p12----12----------
-
B-------------------------------------------15-------------
-
G--11-9-11---9-11-12----10p9----9-------------------10p9---
9
D----------------------------12-------------------------12-
-
A----------------------------------------------------------
-

01:56
 E5
E---------------------------------------------------
B--------------------------------10-----------------
G-12--11-9----12--11-9---12-11-9-----12-11--11--9-9-  x2
D---------------------------------------------------
A---------------------------------------------------

02:19
E5
E--------------------10----------------------------
B---------10-12----10---13-12-10--12h13p12---------
G-9h11h12------------------------------------------
D--------------------------------------------------  x2
A--------------------------------------------------

02:31
       A5
E----------------------------------------------------------
-
B------10-------------10--------------------10--12-10------
-
G-11h12----11h12-11h12---12-11---11h12-11h12----------12-
11-
D----------------------------------------------------------
-
A----------------------------------------------------------
-
         E5
E-----------
B-----------
G-12p119----
D-----------
A-----------

02:44
  A5                          G5
E-----------------------------10-----------------------
B-------------10-12-10-----------13-12-10--12-10-------
G-11h12-11h12----------12-11---------------------12-11-
D------------------------------------------------------
A------------------------------------------------------
          E5
E-----------
B-----------
G-12p119----
D-----------
A-----------

02:55
E5
E-------------------------------------------------
B------------------------------10-----------------
G-12--11-9---12--11-9--12-11-9-----12-11--11--9-9-
D-------------------------------------------------
A-------------------------------------------------


B------------------------
G------------------------
D---5p4-5----------------
A--------7--5h7----------
E---------------7p5-7----

Klibi izlemek için tıklayın

Şarkının doğruluğunu nasıl değerlendiriyorsunuz?
2%
Daha önce 1 değerlendirme yapılmış


Bu sayfayı ziyaret edenler bu sayfalara da uğradı :