Yazdır
Seslendiren: Pentagram
Pentagram
Gönderen:

Lions In A Cage (İntro) (Tab)

 1------------------------------------------------------|
 2---10-9-10-12-9-10--------------10-9-10--12--13--12---I
 3-9------------------10-13-10-7------------------------I
 4------------------------------------------------------|
 5------------------------------------------------------|
 6------------------------------------------------------|

 1-------------12-10-10-----------10--------------------I
 2-10-12-9-10-----------13-12-10-----13-12-10-10-9------I
 3-------------------------------------------------9--10-|
 4------------------------------------------------------|
 5------------------------------------------------------|
 6------------------------------------------------------|

 1------------------------------------------------------|
 2-------12-10-10-9-------------------------------------I
 3--10-9--------------10-13-9-10-7-9--------------------I
 4------------------------------------------------------|
 5------------------------------------------------------|
 6------------------------------------------------------|
  
Şarkının doğruluğunu nasıl değerlendiriyorsunuz?
20%
Daha önce 5 değerlendirme yapılmış


Bu sayfayı ziyaret edenler bu sayfalara da uğradı :