Yazdır
Seslendiren: Pentagram
Pentagram
Gönderen:

Lions In A Cage (İntro) (Tab)

e|------------------------------------------------------|
B|------------------------------------------------------|
G|------------------------------------------------------|
D|----5-4-5-7-4-5---4--------5-4-5-7-8-7-5-7-4----------|
A|-5--------------6---5-3-5~----------------------------|
E|------------------------------------------------------|

e|------------------------------------------------------|
B|------------------------------------------------------|
G|---7-5--5--------5------------------------------------|
D|-5--------8-7-5---8-7-5-4--------------7-5-5-4---4----|
A|--------------------------6-5-6--6-5-----------6------|
E|------------------------------------------------------|

e|----------------------------|
B|----------------------------|
G|----------------------------|
D|----------------------------|
A|-6-5-3--5-------------------|
E|----------------------------|

e|------------------------------------------------------|
B|------------------------------------------------------|
G|------------------------------------------------------|
D|----5-4-5-7-4-5---4--------5-4-5-7-8-7-5-7-4----------|
A|-5--------------6---5-3-5~----------------------------|
E|------------------------------------------------------|

e|--------------------------------------------------------|
B|--------------------------------------------------------|
G|---7-5--5--------5--------------------------------------|
D|-5--------8-7-5---8-7-5-4------------7-5-5-4---4--------|
A|--------------------------6-5-6--6-5---------6----6-5-3-|
E|--------------------------------------------------------|


Şarkının doğruluğunu nasıl değerlendiriyorsunuz?
55%
Daha önce 9 değerlendirme yapılmış


Bu sayfayı ziyaret edenler bu sayfalara da uğradı :