Yazdır
Seslendiren: Pentagram
Pentagram
Gönderen:

Gündüz Gece (Solo) (Tab)

  A5 
e |--------------------------------------15-14-15-12-14-|
B |13-15-15-13p12-12-10~-13-12-8-10-8/-10---------------|
G |-----------------------------------------------------|
D |-----------------------------------------------------|
A |-----------------------------------------------------|
E |-----------------------------------------------------|

e |12p10-10-8--|
B |------------|
G |------------|
D |------------|
A |------------|
E |------------|
 
  N.C.
e |-12-10-7-8----------12---------15-13-12---------------|
B |-----------13p12-13---15-13-12----------15-13-12-13---|
G |------------------------------------------------------|
D |------------------------------------------------------|
A |------------------------------------------------------|
E |------------------------------------------------------|

e |---------------------------------------------17-13----|
B |-p17-16-p17-16-----------------------------15------15-|
G |---------------17-16h17-16-p17-16---------------------|
D |----------------------------------p17-16--------------|
A |------------------------------------------------------|
E |------------------------------------------------------|
   D5                                      E5  
e |--17-13--13-------------------------------------------15|
B |15-----15--15--15-------------------------------17--17--|
G |-------------14--14--14-------------------16--16--16—---|
D |-------------------15--15---------------17--17----------|
A |-------------------------17-16-17-18--19----------------|
E |--------------------------------------------------------|

e |---15---19-----------------------------|
B |-17--------15-15-17-19-----------------|
G |---------------------------------------|
D |---------------------------------------|
A |---------------------------------------|
E |---------------------------------------|

Şarkının doğruluğunu nasıl değerlendiriyorsunuz?
55%
Daha önce 24 değerlendirme yapılmış


Bu sayfayı ziyaret edenler bu sayfalara da uğradı :