Yazdır
Seslendiren: Haluk Levent
Haluk Levent
Gönderen:

Kaçış (Tab)

E||---------------------|------------------------------ )
B||---------------------|------------------------------ )
G||---------------------|------------------------------ )
D||---------------------|------------------------------ )
A||---------------3-----|------------------------3----- )
E||--5-5-5-6-5-5-5-6-5--|-----------5-5-5-6-5-5-5-6-5-- )
                                                        ) x3
E||---------------------|------------------------------ )
B||---------------------|------------------------------ )
G||---------------------|------------------------------ )
D||---------------------|------------------------------ )
A||---------------------|------------------------------ )
E||--3-3-3-5-3-3-3-6-5-3|-----------5-5-5-6-5---------- )

                      3.nün sonunda E'ye -3-5-6-eklenecek
  Yine sabaha vardım...
 
E||---------------------| )
B||---------------------| )
G||---------------------| ) A
D||---------------------| )
A||---------------3-----| )
E||--5-5-5-6-5-5-5-6-5--| )


   Aynı yüzleri gördüm...

E||-----------------------| )
B||-----------------------| )
G||-----------------------| ) B
D||-----------------------| )
A||-----------------------| )
E||--5-5-5-6-5-3-5-6------| )

Ne yaptıysam aklımı kaçıramadım,kaçıramadım...

Yalan gerçek başımı aştı...

TEKRAR A

Usanmadan aradım aşkı...

TEKRAR B 

Buldum ama senden çok uzaktı vazgeçemedim,vazgeçemedim...

  
Klibi izlemek için tıklayın

Şarkının doğruluğunu nasıl değerlendiriyorsunuz?
67%
Daha önce 24 değerlendirme yapılmış


Bu sayfayı ziyaret edenler bu sayfalara da uğradı :