Yazdır
Seslendiren: Barış Manço
Barış Manço
Gönderen:

Arkadasım Esek (Tab)

Arkadaşım eşek (tab) 
 
E ---------7-7--8-8--7---5-5--8-8--7----------- 
B ----5-5-------------------------------------- 
G --------------------------------------------- 
D --------------------------------------------- 
A --------------------------------------------- 
E --------------------------------------------- 
 
 
E ----5-5--8-8--7--5--------------------------- 
B --------------------8----7-7--8--7--5-------- 
G --------------------------------------------- 
D --------------------------------------------- 
A --------------------------------------------- 
E --------------------------------------------- 
 
 
E ---12-12--10-10--8-8--7---5-5--8-8-7-------- 
B -------------------------------------------- 
G -------------------------------------------- 
D -------------------------------------------- 
A -------------------------------------------- 
E ------------------------------------------- 
 
 
E ----5-5--8-8--7--5--------------------------- 
B --------------------8----7-7--8--7--5-------- 
G --------------------------------------------- 
D --------------------------------------------- 
A --------------------------------------------- 
E --------------------------------------------- 
 
 
Barış manço 
 
Şarkının doğruluğunu nasıl değerlendiriyorsunuz?
72%
Daha önce 16 değerlendirme yapılmış


Bu sayfayı ziyaret edenler bu sayfalara da uğradı :