Yazdır
Seslendiren: Ahmet Kaya , Ahmet Kaya
Ahmet Kaya
Gönderen:

Söyle (Tab)

E|---1----------0--1--3--|--0-----3--------------0--1------ 
B|-------3--3-------------|-----3------3--1--3------------- 
G|-------------------------|------------------------------- 
D|-------------------------|------------------------------- 
A|-------------------------|------------------------------- 
E|-------------------------|------------------------------- 
 
Söyle yağmur çamur / değmedi yüreğime 
 
E|--------------------0-----|--------0--0------------------- 
B|--3--0--0--0--1--3----1--|--1--3-------------------------- 
G|----------------------------|----------------------------- 
D|----------------------------|----------------------------- 
A|----------------------------|----------------------------- 
E|-----------------------------|---------------------------- 
 
Şimdi ben nerdeyim / sen nerde 
 
E|--1------------0--1--3--|--0--0-----------0--1------------ 
B|-----3--3--3-------------|------3-1-1-3------------------- 
G|--------------------------|------------------------------- 
D|--------------------------|------------------------------- 
A|--------------------------|------------------------------- 
E|---------------------------|------------------------------ 
 
Söyle ay doğmadan / düşmesi yaş gözüme 
 
E|----------------------0-|--------------------------------- 
B|--3--0--0--0--1--3-----|-1--0----------------------------- 
G|-------------------------|---------2--2------------------- 
D|-------------------------|-------------------------------- 
A|-------------------------|-------------------------------- 
E|-------------------------|-------------------------------- 
 
Şimdi ben nerdeyim / sende nerde 
 
 
 
 
Şarkının doğruluğunu nasıl değerlendiriyorsunuz?
41%
Daha önce 31 değerlendirme yapılmış


Bu sayfayı ziyaret edenler bu sayfalara da uğradı :