Yazdır
Seslendiren: Pentagram
Pentagram
Gönderen:

For Those Who Died Alone (Tab)

D--------------------------------|
A--------------------------------|
F--------------------------------|
C--9-9-9---7-7-7---7-7-7---5-5-5-|
G--7-7-7---5-5-5---5-5-5---3-3-3-|
D--------------------------------|


D-------------------------------------------------|
A-------------------------------------------------|
F-------------------------------------------------|
C--5/7-7h9-9--9-7-7--5-5h7-7--4/5-5h7-7--9/5-5-4-4|
G-------------------------------------------------|
D-------------------------------------------------|
2 kere

D---------------------------------------|
A---------------------------------------|
F--7h9---7-9-9-7-7------7-9-------------|
C------9-----------9-10-----10-10--9-9--|
G---------------------------------------|
D---------------------------------------|
2 kere

D----------------------------------------|
A----------------------------------------|
F----------------------------------------|
C--7h9-------7h9-9-7-7------7-7--9/5-5-4-|
G------10-10-----------9-10--------------|
D----------------------------------------|


D---------------------------------------------|
A---------------------------------------------|
F---------------------------------------------|
C--7h9-------7h9-9-7-7-------7----------------|
G------10-10------------9-10---9-7-7/5--5h7-7-|
D---------------------------------------------|


D------------------------------|
A------------------------------|
F------------------------------|
C------------------------------|
G------------------------------|
D--0-00-00-0----eko var--------|
   . .. .. .        

bas gitar
D------------------------------------|
A------------------------------------|
F------------------------------------|
C------------------------------------|
G----7-5-7-5-7--7-5-7-5-7--7-5-7-5-7-|
D--0---------------------------------|


D-------------------------|
A-------------------------|
F-------------------------|
C--9---------7------------|
G----7-7-7-7---7-7-7-7/10-|
D-------------------------|


D------------------------------------|
A------------------------------------|
F------------------------------------|
C------------------------------------|
G--10-10-10-10h12/9-9-9h10/7-7/5/7---|
D------------------------------------|


bu kısımdaki ritim
D------------------------------------|
A------------------------------------|
F------------------------------------|
C--4---2-----------------------------|
G--2---0---5---4----2----------------|
D----------3---2----0----------------|

en son bölüm arkada zurna var 
D-------------------------------------------------------|
A-------------------------------------------------------|
F-------------------------------------------------------|
C-------------------------------------------------------|
G--------3/2-0-----------------------3/2-0--------------|
D--0-0-0---------0-0-0-0-0-0-0-0-0-----------0-0-0-0-0-0|
   . . .         . . . . . . . . .           . . . . . .    
          
                                        

D--------------------------------------|
A--------------------------------------|
F--------------------------------------|
C--4----------2---------4---------2-4-5|
G--2----------0---------2---------0-2-3|
D------0-0-0-----0-0-0-----0-0-0-------|
       . . .     . . .     . . .                            
Şarkının doğruluğunu nasıl değerlendiriyorsunuz?
72%
Daha önce 9 değerlendirme yapılmış


Bu sayfayı ziyaret edenler bu sayfalara da uğradı :