Yazdır
Seslendiren: Pentagram
Pentagram
Gönderen:

This Too Will Pass (Tab)

E---------------I-----------------I
B---------------I-----------------I
G---------3-4-4-I-----5-4-7-4-2-4-I
D-x-x-4-5-0-2-2-I-x-x-3-2-5-2-0-2-I
A-x-x-2-3-------I-x-x-------------I
E-x-x-----------I-x-x-------------I

E--------------I-----------------I
B--------------I-----------------I
G---------2-4-4I-----5-4-2-4-2-4-I
D-x-x-4-5-0-2-2I-x-x-3-2-0-2-0-2-I
A-x-x-2-3------I-x-x-------------I
E-x-x----------I-x-x-------------I

E---------------I-----------------I
B---------------I-----------------I
G---------3-4-4-I-----5-4-7-4-2-4-I
D-x-x-4-5-0-2-2-I-x-x-3-2-5-2-0-2-I
A-x-x-2-3-------I-x-x-------------I
E-x-x-----------I-x-x-------------I

E--------------I-----------------I-----I
B--------------I-----------------I-----I
G---------2-4-4I-----5-4-2-4-2-4-I-----I
D-x-x-4-5-0-2-2I-x-x-3-2-0-2-0-2-I-x-x-I
A-x-x-2-3------I-x-x-------------I-x-x-I
E-x-x----------I-x-x-------------I-x-x-I

E---------------------------I--------------------------I)
B---------------------------I--------------------------I)
G--------7-7/9-7----7-------I--------7-----------------I)->2
D-7-8-10-------10---8-7-8-7-I-7-8-10---8-10-7--------7-I)
A---------------------------I-----------------7-8-10---I)
E---------------------------I--------------------------I)

TEKRAR
Şarkının doğruluğunu nasıl değerlendiriyorsunuz?
28%
Daha önce 6 değerlendirme yapılmış


Bu sayfayı ziyaret edenler bu sayfalara da uğradı :