Yazdır
Seslendiren: Cengiz Kurtoğlu
Cengiz Kurtoğlu
Gönderen:

Kadehi Şişeyi Kırarım Bugün (Tab)

 0  1   2   3   4   5   6   7   8   9  10  11  12
\ \---|---|---|---|---|---|-*-|-*-|---|-*-|---|-*-|
| |---|---|---|---|---|---|-*-|---|-*-|-*-|---|---|
| |-*-|-*-|---|-*-|---|-*-|---|-*-|-*-|---|---|---|
| |-*-|-*-|---|-*-|---|---|---|---|-*-|---|---|---|
|*|---|-*-|---|-*-|---|---|---|---|---|---|---|---|
/*/---|-*-|---|-*-|---|---|---|---|---|---|---|---|
  
                         (--- 1 ---)
e|---------------------------------------------------------|
B|---------------------------------------------------------|
G|---4---2-1-2----2-1-----1-2----1---1---1-1-1-------------|
D|-2------------------4-4----------4------------4--2-2=----|
A|---------------------------------------------------------|
E|---------------------------------------------------------|

e|------------------------------------------------0-0-0-7--|
B|---------------------------------------------------------|
G|-1--------1------------1-2-4--1-2--------1-2-4-----------|
D|---4-2-4----4-2-1-----------------4--2-4-----------------|
A|------------------4-2------------------------------------|
E|---------------------------------------------------------|

e|----------------------------------------7h9p7------------|
B|-10-9-10--10-9-7-7-9-10--7-9--9-10-9-10-------10-9h10p9--|
G|---------------------------------------------------------|
D|---------------------------------------------------------|
A|---------------------------------------------------------|
E|---------------------------------------------------------|

e|---------------------------------------------------12--0-|
B|-7----9-7--7---9-7-------------------------------12----0-|
G|---9-----9---------9-8-6-----------------------12------1-|
D|-------------------------9-----------------------------2-|
A|--------------------------------0-2---0----------------2-|
E|------------------------------4-----4----2--0----------0-|

E              A 
Gelmeyin üstüme sakın gelmeyin
              B          E
Dostu arkadaşı kırarım bugün
B             A         E
Gözümde anılar canlandı yine
A         B             E
Kadehi şişeyi kırarım bugün
  
                        (--- 2 ---)           
e|-----------------------------------------0-------------0-|
B|----------------------0-------0-0-0-2--3--2h3p2-0h2p0--2-|
G|-----1-1-1-2---1-2-2-2----1-2--------------------------2-|
D|-2-4---------4-----------------------------------------2-|
A|-------------------------------------------------------0-|
E|---------------------------------------------------------|
_
.|  A
.| Kim var benim gibi yazısı kara
.|
N| Gençliğim gömüldü acı yıllara
A| D                A                E
K| Bir sevgi yüzünden düştüm yollara
.|2(En büyük aşkımdan almışım yara)
.|3(Bir güzel yüzünden düştüm yollara)
.|                         A
-| Kadehi şişeyi kırarım bugün


E                A
Bu şarkılar varya ah bu şarkılar
                 B          E
Sanki yalnız seni anlatıyorlar
B                 A           E
İçimden çok şeyler kopartıyorlar
A         B              E
Kadehi şişeyi kırarım bugün

(-1-) + NAK
Şarkının doğruluğunu nasıl değerlendiriyorsunuz?
60%
Daha önce 14 değerlendirme yapılmış


Bu sayfayı ziyaret edenler bu sayfalara da uğradı :