Yazdır
Seslendiren: Barış Manço
Barış Manço
Gönderen:

Dönence (Tab)

Dönence Solo Kısım

E|------------------------------ 
B|------------------------------
G|------------------------------       X3 
D|--17-16-14-17-14-12/14--------
A|------------------------------
E|------------------------------

E|------------------------------ 
B|------------------------------
G|------------------------------      
D|--17-16-14-17-14--------------
A|------------------------------
E|------------------------------

E|--------------------------------------------
B|--------------------------------------------
G|--------------------------------------------
D|--17b-17b-17b-17b----17b-15-14-15-14-15-17b-
A|--------------------------------------------
E|--------------------------------------------

E|---------------------------------------
B|---------------------------------------
G|-----15-17-15--------------------------
D|--17b---------17-15-14-12-14-15-17b-15-
A|---------------------------------------
E|---------------------------------------

E|------------------------------------------------
B|------------------------------------------------
G|--------15-17-15----15-17-17b-17b-17------------
D|--15-17----------17-----------------------------
A|------------------------------------------------
E|------------------------------------------------
Klibi izlemek için tıklayın

Şarkının doğruluğunu nasıl değerlendiriyorsunuz?
90%
Daha önce 34 değerlendirme yapılmış


Bu sayfayı ziyaret edenler bu sayfalara da uğradı :