Yazdır
Seslendiren: Duman
Duman
Gönderen:

Herşeyi Yak (Tab)

Riff 1
e------------------------I----------------------
B------------------------I----------------------
G--7-7--7/9-5--5-5--5-0--I--3-3--0-2--2-2--2-0--
D--0-0--0---0--0-0--0-0--I--0-0--0-0--0-0--0-0--
A------------------------I----------------------
E------------------------I----------------------

Riff 2
e----------------------I----------------------
B----------------------I----------------------
G--0------2__2-0-------I--2-2--2-2--2-2--2-0--
D--0-3--2-3__3-0--2-0--I--3-3--3-3--3-3--3-0--
A----------------------I----------------------
E----------------------I----------------------

Riff 3
   Bb                     Bb
e----------------------I----------------------
B----------------------I----------------------
G------------------7---I--7-7--7-7--7-7--7-7--
D------------------8---I--8-8--8-8--8-8--8-8--
A--8_______8_____8-----I----------------------
E--6_______6_____6-----I----------------------

Riff 4
   Bb
e----------------------I----------------------
B------------6------6--I--6-6--6-6--6-6--6-6--
G--7-7--7-7--7-7--7-7--I--7-7--7-7--7-7--7-7--
D--8-8--8-8----8--8----I----------------------
A----------------------I----------------------
E----------------------I----------------------

**************************************************
  Sample
  D5                       C5        Bb5
e------------------------I----------------------
B------------------------I----------------------
G------------------------I----------------------
D--7-7--7-7--7-7--7-7----I--5-5--5-5--3-3--3-3--
A--5-5--5-5--5-5--5-5----I--3-3--3-3--1-1--1-1--
E------------------------I----------------------
   beni yak kendini yak      herşe    yi   yak
   bir kıvılcım yeter ben         hazırım  bak

  A5                       Bb5
e------------------------I----------------------
B------------------------I----------------------
G------------------------I----------------------
D------------------------I----------------------
A--7-7--7----7-7--7------I--8-8--8----8-8--8----
E--5-5--5-0--5-5--5-0----I--6-6--6-0--6-6--6-0--
     isteröp ok  şa         istersen   öl  dür

*************************************************
 Used Chorus
   D5  C5  Bb5  A5  Bb5  G5  A5  G5 Bb5      Bb
e----------------------------------------I---6---
B----------------------------------------I---6---
G----------------------------------------I---7---
D--7---5----3----------------------------I---8---
A--5---3----1---7----8---5---7---5---8---I---8---
E---------------5----6---3---5---3---6---I---6---
Klibi izlemek için tıklayın

Şarkının doğruluğunu nasıl değerlendiriyorsunuz?
33%
Daha önce 3 değerlendirme yapılmış


Bu sayfayı ziyaret edenler bu sayfalara da uğradı :