Yazdır
Seslendiren: Pentagram
Pentagram
Gönderen:

Rotten Dogs (Tab)

ROTTEN DOGS
riff 1

------------------------------
------------------------------
------------------------------
------------------8--7--5--7--
-7-7-7-7-7-7-7-7--6--5--3--5--
-5-5-5-5-5-5-5-5--------------


riff 2

------------------------------
------------------------------
------------------------------
------------------------5--4--
-7-5-5-5-5-5-5-5--5--7--3--2--
-5-3-3-3-3-3-3-3--3--5--------


riff 3

-----------------------------------------------------
-----------------------------------------------------
-----------------------------------------------------
--------------------------------------------3-5-4-3~-
-3p2--2---2-2-3p2--2---2-2-3p2--2---2-2-3-5----------
-1p0-00-0-000-1p0-00-0-000-1p0-00-0-000--------------


riff 4

--------------------
--------------------
--------------------
-5--5555--4-444444--
-3--33333-2-222222--
-------------------- 
Şarkının doğruluğunu nasıl değerlendiriyorsunuz?
87%
Daha önce 4 değerlendirme yapılmış


Bu sayfayı ziyaret edenler bu sayfalara da uğradı :