Yazdır
Seslendiren: Pentagram
Pentagram
Gönderen:

Thousand In The Eastland (Intro) (Tab)

                
Intro-
e/-------------------------------
b/-------------------------------
g/-------------------------------
d/------5-4-5---7-5-4------------
a/---5-----------------6--5--3-5-
d/-------------------------------
                                                   

/--------------------------------
/--------------------------------
/--------------------------------
/-------4--------4--------4---5--
/---5--------6-------6-----------
/--------------------------------

/----------------------------------------------
/----------------------------------------------
/----------------------------------------------
/-----7--5--4--5-----7--5--4-------------------
/-----------------------------------6--5--3--5-
/----------------------------------------------

/--------------------------------------------
/--------------------------------------------
/--------------------------------------------
/------4--------4-----5--4-------------------
/--5-------6-------------------6--5--3--5--3-
/--------------------------------------------

/------------------------------------------
/------------------------------------------
/------------------------------------------
/-------4-5-4----------------4-------------
/---5-----------6--5-----6------6--5--3--5-
/------------------------------------------




Şarkının doğruluğunu nasıl değerlendiriyorsunuz?
52%
Daha önce 7 değerlendirme yapılmış


Bu sayfayı ziyaret edenler bu sayfalara da uğradı :