Yazdır
Seslendiren: Cahit Berkay
Cahit Berkay
Gönderen:

Al Yazmalım (Tab)

 Bölüm 1
E-0-10-9-10-7-7-3-7p5-5-5-5-2-3-2-3h5-3p2-2p0-0------------|
B----------------------------------------------------------|
G----------------------------------------------------------|

 Bölüm 2
E-2h3-5-5p3-7p5-5-3-2-3h5-3p2-2p0----3---5-3-2p0-0---------|
B----------------------------------3---5-------------------|
G----------------------------------------------------------|

 Bölüm 3 (flüt)
E7/9-10-10p9-12p10-10-9-7-10p9-9-9h10-7-7p5-9p7-7-5-3-7p5-5|
B----------------------------------------------------------|
G----------------------------------------------------------|

 Bölüm 2 (tekrar)
E-2h3-5-5p3-7p5-5-3-2-3h5-3p2-2p0----3---5-3-2p0-0---------|
B----------------------------------3---5-------------------|
G----------------------------------------------------------|
Şarkının doğruluğunu nasıl değerlendiriyorsunuz?
60%
Daha önce 147 değerlendirme yapılmış


Bu sayfayı ziyaret edenler bu sayfalara da uğradı :