Yazdır
Seslendiren: Haramiler
Haramiler
Gönderen:

Fabrika Kızı (Solo) (Tab)

flütlü kısım gitarla:
|---------------------------------------------------|
|---------------------------------------------------|
|9-9-9--10p9--7h9--5-5-5--7p5--4h5----2-------------|
|-----------------------------------5---5--3--3p2--2|
|---------------------------------------------------|
|---------------------------------------------------|


Fabrikada tütün...                 Sanki kendi...
|12--8-------8--|                 |10--7--------7 |
|--------10------|                |---------8------|
|----------------|   ) x4         |----------------| ) x 4
|----------------|                |----------------|
|----------------|                |----------------|
|----------------|                |----------------|

Sararkende...                     Bütün insan...
|8--5--------5|                   |7--4--------4|
|--------6-----|                  |--------5-----|
|--------------| ) x 4            |--------------|
|--------------|                  |--------------| )  x 4
|--------------|                  |--------------|
|--------------|                  |--------------|

Ağlar   fabrika kızı
           |12b--12b--12b|
           |----------------|
           |----------------|  
           |----------------|
           |----------------|
           |----------------|

Solo:

|-------------------------------------------------------|
|10--10-10-10--12--13--13b--12--10/8--8-8-8---10|
|-------------------------------------------------------|
|-------------------------------------------------------|
|-------------------------------------------------------|
|-------------------------------------------------------|


|-------------------------------------------------------|
|12--12b--10--8/6--6-6-6--8--10--10b--8--6--5--6-|
|-------------------------------------------------------|
|-------------------------------------------------------|
|-------------------------------------------------------|
|-------------------------------------------------------|

|-----------------------------------------12--10- |
|----5--5-5-6-8--10-10-10--12--13-13-13---------- | 
|7------------------------------------------------|
|-------------------------------------------------|
|-------------------------------------------------|
|-------------------------------------------------|


|-----------------------------------------------|
|8-8-8--10--12--12b--10--8--6-6-6--8--10--10b--8|
|-----------------------------------------------|
|-----------------------------------------------|
|-----------------------------------------------|
|-----------------------------------------------|

|---------------------------------------|
|6--5--6-----5--5--6--5-----------------|
|---------7---------------7--5--4-------|
|------------------------------------7~~|
|---------------------------------------|
|---------------------------------------|

Akorlar: Am - G - F- Em 
Electric gitarlar distortion ve delay efektleriyle çalınıyor

Şarkının doğruluğunu nasıl değerlendiriyorsunuz?
59%
Daha önce 25 değerlendirme yapılmış


Bu sayfayı ziyaret edenler bu sayfalara da uğradı :