Yazdır
Gönderen:

Uzun İnce Bir Yoldayım (Tab)

e-3-5-5-3p2p0-3-2-0-0-0----7-5-7-3-5-3p2p0-3-2-0-0-0-I
B----------------------------------------------------I
G----------------------------------------------------I
D----------------------------------------------------I
A----------------------------------------------------I
E----------------------------------------------------I



e-9-10-10-10--10-9-7-10-9--9-7----9-7--------I
B------------------------------10------------I
G--------------------------------------------I
D--------------------------------------------I
A--------------------------------------------I
E--------------------------------------------I



e-7-5---7-5--5-3---5-3--3-2---3-2--2-0---2-0-=0=---I
B-----8----------7----------5----------3-----------I
G--------------------------------------------------I
D--------------------------------------------------I
A--------------------------------------------------I
E--------------------------------------------------I


Şarkının doğruluğunu nasıl değerlendiriyorsunuz?
56%
Daha önce 226 değerlendirme yapılmış


Bu sayfayı ziyaret edenler bu sayfalara da uğradı :