Yazdır
Seslendiren: Pentagram
Pentagram
Gönderen:

Thousand In The Eastland (Tab)

Gtr I
               ~~                ~
    E  E  S S  Q   S  S S  S S S Q
||----------------------------------|
||o---------------------------------|
||----------------------------------|
||-----7--7p6--7---9p=7S6-----------|
||o-7----------------------8-7-5S7--|
||----------------------------------|
|
|   Gtr II
|              ~~                ~
|   E  E  S S  Q   S  S S  S S S Q
||----------------------------------|
||o---10-10p9-10--12p10p9-----------|
||--9---------------------10-9S7h9--|
||----------------------------------|
||o---------------------------------|
||----------------------------------|


           ~        ~~~             ~~                ~
  E E S  S Q   E E  Q.      E  E E  Q   S  S S  S S S Q
|------------------------|---------------------------------|
|------------------------|---------------------------------|
|------------------------|---------------------------------|
|---6-6----6-----6--7----|--9--7-6--7---9--7S6-------------|
|-7------8-----8---------|----------------------8p7-5S7----|
|------------------------|---------------------------------|
|
|          ~        ~~~             ~~                ~
| E E S  S Q   E E  Q.      E  E E  Q   S  S S  S S S Q
|------------------------|---------------------------------|
|---9-9----9-----9-10----|-12-10-9-10--12p10p9-------------|
|-9-----10----10---------|---------------------10-9S7h9----|
|------------------------|---------------------------------|
|------------------------|---------------------------------|
|------------------------|---------------------------------|


 10/8
  Gtr I
           ~                ~
  E E S  S Q   S S  S S S S Q
|------------------------------|
|------------------------------|
|------------------------------|
|---6-6----6---7p6-------------|
|-7------8----------8p7-5S7S5--|
|------------------------------|
|
| Gtr II
|          ~                ~
| E E S  S Q   S S  S S S S Q
|------------------------------|
|---9-9----9--10p9-------------|
|-9-----10---------10p9S7h9p7--|
|------------------------------|
|------------------------------|
|------------------------------|
                                     Q=136
                                    4/4
                ~             ~~~~~~~~~~~
  E E S  S S  S E  S S  E S S Q      +H.      +E  E
|---------------------------------||-----------------|
|--------------------------------o||-----------------|
|---------------------------------||-----------------|
|---6-6h=7-6---------6------------||-----------------|
|-7-----------8p7--8----8-7-5S7--o||-(7)------(7)-7--|
|---------------------------------||--------------0--|
|
|                             ~~~~~~~~~~~
| E E S  S S  S E  S S  E S S Q      +H.      +Q
|---------------------------------||-----------------|
|---9-9h10-9---------9-----------o||-----------------|
|-9----------10-9-10---10-9S7h9---||-(9)------(9)----|
|---------------------------------||-----------------|
|--------------------------------o||-----------------|
|---------------------------------||-----------------|


 4/4
  Gtr I
  +E  E E S S Q.   E   +E  E E S S   Q.   E
|--------------------|----------------------|
|--------------------|----------------------|
|--------------------|----------------------|
|--------------------|----------------------|
|-(7)-7-5h7p5-7----7-|-(7)-7-5h7p5-/10----7-|
|-(0)--------------0-|-(0)----------------0-|
Şarkının doğruluğunu nasıl değerlendiriyorsunuz?
65%
Daha önce 5 değerlendirme yapılmış


Bu sayfayı ziyaret edenler bu sayfalara da uğradı :