Yazdır
Seslendiren: Ahmet Kaya , Ahmet Kaya , Ahmet Kaya
Ahmet Kaya
Gönderen:

Giderim (Tab)

SOLO

e|-------------------|--------|--------------------|-------|
B|-------------------|--------|--------------------|-------|
G|--------0-2--------|--------|--------2-0---------|-------|
D|--2-2-3-----3-2-2~-|-10/9~--|--2-2-3-----3-2-3~--|-12/10~|
A|-------------------|--------|--------------------|-------|
E|-------------------|--------|--------------------|-------|
                      
                    

e|---------------------------------------------------------|
B|---------------------------------------------------------|
G|--5-4-5-4-2-0-2-4-2-4-2-0----0---0-0---------------------|
D|---------------------------3---3-----3-3-2-2~------------|
A|---------------------------------------------------------|
E|---------------------------------------------------------|
Şarkının doğruluğunu nasıl değerlendiriyorsunuz?
49%
Daha önce 48 değerlendirme yapılmış


Bu sayfayı ziyaret edenler bu sayfalara da uğradı :