Yazdır
Seslendiren: Grup Yorum
Grup Yorum
Gönderen:

Çav Bella (Tab)

  Am
   iş-te   bir sa-bah           u-yan-dı-ğın-da
e|--------------------|--0--|----------5---7--------|
B|--5--5----7---8-5~--|--1--|----8-8-----------8~---|
G|--------------------|--2--|-----------------------|
D|--------------------|--2--|-----------------------|
A|--------------------|--0--|-----------------------|
E|--------------------|--0--|-----------------------|


  Am
   çav bel-la   çav bel-la   çav bel-la
e|------5------------5------------5------------|
B|--8-------8----8-------8-----8------8--------|
G|---------------------------------------------|
D|---------------------------------------------|

        Ritm-solo
 (buradan sonra bir kişi solo, bir kişi de ritimle çalınca 
       ayrı bi güzellik katıyo müziğe)

                Dm
   çav çav çav  el-ler-i   bağ-lan-mış
e|--7---7---7----7--5--7----8---8---8----------|
B|---------------------------------------------|
G|---------------------------------------------|
D|---------------------------------------------|

  
                Am                   E             Am
   bul-du-ğum  yur-du-mun  her yan-ı iş-gal al-tın-da
e|-8---7--5----8---7--7----5---5--------7------5---7~|
B|---------------------------------8--7------8-------|
G|---------------------------------------------------|
D|---------------------------------------------------|



   el-ler-i  bağ-lan-mış  bul-du-ğum  yur-du-mun
e|-5---5--7---8---8---8----8--7---5----8---7--7-|
B|----------------------------------------------|
G|----------------------------------------------|
D|----------------------------------------------|

   her yan-ı  iş-gal  al-tın-da
e|--5---5---------7----------------------------|
B|---------8--7-------8---7---5----------------|
G|---------------------------------------------|
D|---------------------------------------------|



 Am 
Sen ey Partizan beni de götür 
                              Am   
Cav bella cav bella cav bella cav cav cav 

Dm                    Am  ) 
Beni de götür daglariniza ) 
      E           Am      ) 2 
Dayanamam tutsakliga      ) 

Am 
Eger ölürsem ben Partizan'ca  
                              Am   
Cav bella cav bella cav bella cav cav cav 

Dm                        Am  ) 
Sen gömmelisin ellerinle beni ) 
     E         Am             ) 2 
Ellerinle toprağıma           ) 

Am
Günes dogacak acacak cicek
                              Am   
Cav bella cav bella cav bella cav cav cav

Dm                      Am        )
Gelip gecenler diyecek "Merhaba"  )
         E           Am           ) 2
"Merhaba ey güzel cicek"          )
Şarkının doğruluğunu nasıl değerlendiriyorsunuz?
75%
Daha önce 157 değerlendirme yapılmış


Bu sayfayı ziyaret edenler bu sayfalara da uğradı :