Yazdır
Seslendiren: Feridun Düzağaç
Feridun Düzağaç
Gönderen:

Lavinya (Tab)

Giriş

E|----6--6-6-7-6------------------7-6--6-6-7-6-------------|
B|---------------9-7-9----7-9-7-9--------------9-7-9-------|
G|--8------------------------------------------------------|
D|---------------------------------------------------------|
A|---------------------------------------------------------|
E|---------------------------------------------------------|


E|-7-6-----------------------------------------------------|
B|-----9-7---------------------------------7---------------|
G|---------9-8----6-8-6-8-6-8-6-8-9--6-8-9---9-8-8---------|
D|---------------------------------------------------------|
A|---------------------------------------------------------|
E|---------------------------------------------------------|


E|-----------11-9-11-12---9-11-12-14-12--------------------|
B|---------------------------------------------------------|
G|-6-8-6-8-6-----------------------------------------------|
D|---------------------------------------------------------|
A|---------------------------------------------------------|
E|---------------------------------------------------------|


D#m    C#m         D#m
Sana gitme demiyeceğim
 E  C#m           D#m
Ama    gitme Lavinya

          G#m        E 
   ( Yalanlar istiyorsan
   ( C#m      D#m
   ( Yalanlar söyleyeyim
   (        E
   ( İncinirsin 
 A ( C#m              D#m
   (  Yine de sen bilirsin  
   (      C#m-E          D#m
   ( Sana git-me demiyeceğim
   (  E  C#m           D#m
   ( Ama    gitme Lavinya


Ddim                    D#m
     Üşüyorsun ceketimi al
           E  C#m            D#m
Günün en güzel   saatleri bunlar
     E          C#m
Lavinya yanımda kal
        D#m
Yanımda kal
                   E
Sana gitme demiyeceğim
    C#m        D#m
Ama gitme Lavinya
               E
Adını gizleyeceğim
      G#m
Sende bilme
           E   D#m
Bilme Lavinyaaaa

TEKRAR A

Akorlar:

D#m   :x68876
C#m   :x46654
E     :x76454
G#m   :688666
Ddim  :x56464
Şarkının doğruluğunu nasıl değerlendiriyorsunuz?
38%
Daha önce 5 değerlendirme yapılmış


Bu sayfayı ziyaret edenler bu sayfalara da uğradı :