Yazdır
Seslendiren: Feridun Düzağaç
Feridun Düzağaç
Gönderen:

Düşler Sokağı (Tab)

e------------------------------------------------I )
B------------------------------------------------I )
G-----0----------------0-------------------------I )2
D-2-2---3-3-2-0-2--2-2---3-2-0-------------------I )
  Ben kuslardanda kucuktum bir gece vaktiydi 
  Gectim dusler sokagindan bir gece vaktiydi

e------------------------------------------------I ) 
B------------------------------------------------I )2
G--------2-2-0-----------------------------------I )
D---------------3-2------------------------------I )
   Ask tuttu elimden beni
   Ceplerimde haci yatmazlaR 


e---------------0------0-------------------------I
B---------0-1-----0------------------------------I
G-------------2-----2----------------------------I
D------------------------------------------------I
   Yagmur yagsa uykum kacsa


e------------------------------------------------I
B---0-1-0----------------------------------------I
G---------2-2-0-2-0----0-2-----------------------I
D--------------------3------3--2-2-0-2-----------I
  Bir kus konsa badi parmagima aglardim bir basima



e--0---1-0---------------0---1-0-----------------I
B----3---------------------3---------------------I
G------------------------------------------------I
D------------------------------------------------I
   Sevdadandir....      Sevdadandir......



e------------------------------------------------I
B--0-1-0-----------------------------------------I
G--------2-2-0-2-0----0-2------------------------I
D------------------3------2-2-0-2----------------I
 Sevdadandir dedi annem aldirma aldirma gel yanima
Şarkının doğruluğunu nasıl değerlendiriyorsunuz?
50%
Daha önce 44 değerlendirme yapılmış


Bu sayfayı ziyaret edenler bu sayfalara da uğradı :