Yazdır
Seslendiren: Kıraç
Kıraç
Gönderen:

Razıysan Gel (İntro) (Tab)

İntro: Bm - Am - Em - D - C - Bm

E----------------------------------7--8--7---
B----------------7--8--7---7-8--10-----------
G----------7--9----------9-------------------
D--9--10-------------------------------------
A--------------------------------------------
E--------------------------------------------


E---------------------------------------------
B--8-10-8-7---7-8-7----------7----------------
G-----------9--------9--7--9---9--7----7------
D-----------------------------------10---9----
A---------------------------------------------
E---------------------------------------------


Şarkının doğruluğunu nasıl değerlendiriyorsunuz?
59%
Daha önce 18 değerlendirme yapılmış


Bu sayfayı ziyaret edenler bu sayfalara da uğradı :