Yazdır
Seslendiren: Mor ve Ötesi
Mor ve Ötesi
Gönderen:

Cambaz (İntro) (Tab)

e|--------------------------------------------------------|
 |--------------------------------------------------------|
 |---------11--9-9--7-7----------12--11-11--9-9---7-------|
 |-9-10-9----------------10-10-9--------------------10-9--|
 |--------------------------------------------------------|
E|--------------------------------------------------------|


e|--------------------------------------------------------|
 |--------------------------------------------------------|
 |--11-9-9--7-7--5--5/7-----------------------------------|
 |------------------------9--7h9---6-7--5-6---------------|
 |--------------------------------------------------------|
E|--------------------------------------------------------|
Şarkının doğruluğunu nasıl değerlendiriyorsunuz?
70%
Daha önce 43 değerlendirme yapılmış


Bu sayfayı ziyaret edenler bu sayfalara da uğradı :