Yazdır
Seslendiren: Pentagram
Pentagram
Gönderen:

Şeytan Bunun Neresinde (Tab)

---------------------
--19---17---15---12--
----18---16---14---11
---------------------
---------------------
---------------------


------------------------------------------------
------------------------------------------------
------------------------------------------------
------------------------------------------------
--4-4-4-4--6/7--7-7-7--7/9--7-6-6--6/7--6--4-2-4
--2-2-2-2--4/5--5-5-5--5/7--5-4-4--4/8--4--2-0-2

------------------------------
------------------------------
------------------------------
--8/9-9-8-8/9-6-4-------------
--6/7-7-6-6/7-4-2-------------
------------------------------


Intro 2 de çalan melodinin arkasindaki ritmler
(Zamanlama size ait)
-----------------------
-----------------------
-----------------------
-4-2-------------------
-2-0--2--4-4-4-4--7-7--
------0--2-2-2-2--5-5--

Intro2

------------------------------------
------------------------------------
-9-11-11-9-9-7-7-6-7-9-9-7-7-6-6-4--
------------------------------------
------------------------------------


-------------------------------
-------------------------------
--13-14-14-13-11-9-8-9-11------
-------------------------------
-------------------------------
-------------------------------


--------------------------------------- 
--------------------------------------- 
--------------------------------------- 
-----------------------8/9-9-8-8/9-6-4-  
-4---------------------6/7-7-6-6/7-4-2- 
-2------------------------------------- 
Telli Sazdir bunun adi 
Ne Ayet Dinler ne de kadi 
Bunun çalan anlar kendi 

Abdest Alsan aldin demez 
Namaz kilsan kildin demez 
Müftü gibi haram yemez 

Istanbul'dan çikar teli 
Ardiç agacindan kolu 
Be Allah'in sersem kulu 

Boynuzu yok kuyruksuzdur
Ayagida çariksizdir
Derdli gibi sariksizdir



------------------------------------------------
------------------------------------------------
------------------------------------------------
------------------------------------------------
--4-4-4-4--6/7--7-7-7--7/9--7-6-6--6/7--6--4-2-4
--2-2-2-2--4/5--5-5-5--5/7--5-4-4--4/8--4--2-0-2


Solo ile alttakiler çalinacak
(Tempo biraz hizli)
-------------------------
-------------------------
-------------------------
-------------------------
-4--10--9--6--9--10--4---
-2--8--7--4--7--8--2-----


------------------------------
------------------------------
------------------------------
--8/9-9-8-8/9-6-4-------------
--6/7-7-6-6/7-4-2-------------
------------------------------
Klibi izlemek için tıklayın

MP3 indirmek için tıklayın



Şarkının doğruluğunu nasıl değerlendiriyorsunuz?
20%
Daha önce 5 değerlendirme yapılmış


Bu sayfayı ziyaret edenler bu sayfalara da uğradı :