Yazdır
Seslendiren: Cem Karaca , Teoman
Cem Karaca
Gönderen:

Resimdeki Gözyaşları (Tab)

Intro
 E--13-12-13-12-13-12-13------13-12-13-12-13-12-13-15---|
 B------------------------15----------------------------|
 G------------------------------------------------------|
 D------------------------------------------------------|
 A------------------------------------------------------|
 E------------------------------------------------------|

 E------------------------------------------------------|
 B--656565-6-656565--8--868686--5--5555--6-8-10-----55--|
 G----------------------------------------------7777----|
 D------------------------------------------------------|
 A------------------------------------------------------|
 E------------------------------------------------------|

 E------------------------------------------------------|
 B-------5--6---8-8-8-6-5--6-----5-6--8--8--6-5---656565|
 G-7--7----------------------7--7---------------7-------|
 D------------------------------------------------------|
 A------------------------------------------------------|
 E------------------------------------------------------|


 E------------------------------------------------------|
 B-8---5--6-5-6----55555--6-8-10--6-5-6--5555-----656565|
 G---------------7----------------------------7-7-------|
 D------------------------------------------------------|
 A------------------------------------------------------|
 E------------------------------------------------------|

 Solo
 E------------------------------------------------------|
 B-6-5-6-5-6-5---6-5-6---5-6--8--868686-5-555568-10-----|
 G-------------7-------7--------------------------------|
 D------------------------------------------------------|
 A------------------------------------------------------|
 E------------------------------------------------------|

 E------------------------------------------------------|
 B--6-5------5-6--8--8-65--65------56--88-865-65-----56-|
 G------7--7------------------7--7---------------7-7----|
 D------------------------------------------------------|
 A------------------------------------------------------|
 E------------------------------------------------------|

 E------------------------------------------------------|
 B-8-8--865---------------------------------------------|
 G------------------------------------------------------|
 D------------------------------------------------------|
 A------------------------------------------------------|
 E------------------------------------------------------|






Şarkının doğruluğunu nasıl değerlendiriyorsunuz?
77%
Daha önce 16 değerlendirme yapılmış


Bu sayfayı ziyaret edenler bu sayfalara da uğradı :