Yazdır
Seslendiren: Pentagram
Pentagram
Gönderen:

Pain (Tab)

intro

e---------------------------------------------|
b---------------------------------------------|
g---------------------------------------------|
d---------------------------------------------|
a---------------------------------------------|
e--4-5p5-4p4----4-5p5p4-5p5p7-7p5p5-5--5p4p2--|

e---------------------------------------------------------|
b---------------------------------------------------------|
g---------------------------------------------------------|
d---------------------------------------------------------|
a---------------------------------------------------------|
e-4-5p5-4p4--7-9p9-7-9-91p1-7-7p9--5p4p2---4-5p5-4p4 .....| 

solo-1

e-------------------------------------------------------|
b------------------------------------------------------|
g--------------------------------------------------------|
d-11---------------------------11------------------------|
a----11-11---8-9-11-9-8-11-------11-11---8-9-12-11-9-8---|
e--------------------------9---------------------------9-|


solo-2

e----------------------------------------------------------|
b----------------------------------------------------------|
g----------------------------------------------------------|
d-----------------10-12-10--8-10-8--7-8--5--8-(8)--7-(7)---|
a---------9p10-12------------------------------------------|
e-9p10-12--------------------------------------------------|


e----------------------------------------------------------|
b----------------------------------------------------------|
g----------------------------------------------------------|
d-----------------10p12-10p12p13p12-10p8p7-5p7p8--4p5p7---0|
----------9p10-12-----------------------------------------|
e-9p10-12-------------------------------------------------|
Şarkının doğruluğunu nasıl değerlendiriyorsunuz?
50%
Daha önce 2 değerlendirme yapılmış


Bu sayfayı ziyaret edenler bu sayfalara da uğradı :